Dut Ağacı - akor ve tab

Konu, 'Gitarlar ve Gitar Akorları' kısmında CryDaqqeR tarafından paylaşıldı. Okunma: 3557 | Cevaplanma: 0

Konu Durumu:
Daha fazla cevap için açık değil.
  1. PHP:
          Am                         Dm       
    E
    ||---------0--1--0-----------|-------------------|
    B||---1--3-----------3--3--2--|--3----------------|
    G||*--------------------------|-------------------|
    D||*--------------------------|-------------------|
    A||---------------------------|-------------------|
    E||---------------------------|-------------------|


                                 
    Am   
    ------0----0--------------|--------------------||
    --
    3-----3-----3--1--1--0--|--1-----------------||
    --------------------------|-------------------*||
    --------------------------|-------------------*||
    --------------------------|--------------------||
    --------------------------|--------------------||


      
    Dm                         Am  
    --------------------------|----------------------|
    --
    3--3--3--3--3--1--1--0--|--1--------1--0-------|
    --------------------------|-----------------
    2----|
    --------------------------|----------------------|
    --------------------------|----------------------|
    --------------------------|----------------------|


      
    E                          Am       A7  
    --------------------------|--------------------|
    --
    0--1--0--1--0--------0--|--1--------2--------|
    -----------------
    2--2-----|--------------------|
    --------------------------|--------------------|
    --------------------------|--------------------|
    --------------------------|--------------------|


      
    Dm                         Am    
    --------------------------|----------------------|
    --
    3--3--3--3--3--1--1--0--|--1--------1--0-------|
    --------------------------|-----------------
    2----|
    --------------------------|----------------------|
    --------------------------|----------------------|
    --------------------------|----------------------|


      
    E                          Am    
    --------------------------|-------------------|
    --
    0--1--0--1--0-----------|-------------------|
    -----------------
    2--2--1--|--2----------------|
    --------------------------|-------------------|
    --------------------------|-------------------|
    --------------------------|-------------------|


        
    Am                         E      
    |---------------------------|-------------------|
    |---
    1--1--1--1--1--3--3--1--|--0----------------|
    |*--------------------------|-------------------|
    |*--------------------------|-------------------|
    |---------------------------|-------------------|
    |---------------------------|-------------------|


                                 
    Am                
    --------------------------|-------------------|
    --
    0---1-0--1--0--------0--|--1----------------|
    -----------------
    2--2-----|-------------------|
    --------------------------|-------------------|
    --------------------------|-------------------|
    --------------------------|-------------------|


      
    Am                         E       
    --------------------------|--------------------|
    --------
    0--1--0-----------|-----------3--------|
    --
    1--2-----------2--1-----|--------------------|
    -----------------------
    3--|--2-----------------|
    --------------------------|--------------------|
    --------------------------|--------------------|


                                   
    Am      
    --------------------------||--------------------||
    --
    0---1-0--1--0-----------||--------------------||
    -----------------
    2--2--1--||*--2----------------||
    --------------------------||*-------------------||
    --------------------------||--------------------||
    --------------------------||--------------------||

     
        
      
         






    Am                Dm                Am
    Dut ağacı boyunca
    dut yemedim doyunca
    Dm                Am    E             Am
    -A7
    Yari halvette gördüm
    danışmadın doyunca
    Dm                Am    E7            Am
    Yari halvette gördüm
    danışmadın doyunca

      
    /Am                E                    Am 
    /Menim balam kime neylerkörpe balam kime neyler
      
    /Am                E                    Am 
      
    /Menim balam ay balam ay körpe balam ay balam


    Am              Dm                 Am  
    Kızıl özül ahladı verdim anam sahladı
    Dm             Am   E             Am
    -A7 
    Anama gurban olam meni tez adahladı
    Dm                Am    E7        Am
    Anama gurban olam meni tez adahladı

                NAKARAT
    Am                   Dm             Am
    Geydirdim yavaş yavaş ayağıma değdi taş
    Dm                Am    E               Am
    -A7
    Senden mene yar olmaz gel olax bacı gardaş
    Dm                Am    E7             Am
    Senden mene yar olmaz gel olax bacı gardaş

                NAKARAT 

     
    Yazan: CryDaqqeR
Yüklüyor...
Konu Durumu:
Daha fazla cevap için açık değil.